Búsqueda de Google

Mientras bailas acordes


DUO COPLANACU


MIENTRAS BAILAS

Roberto Cantos 
Intro:
Arpegios con

e:-0---0---0---0---0---0---0---0--|
B:-0---10--9---8---7---0---0---0--|
G:-11--11--11--9---9---7---7---7--|
D:-12--0---0---0---0---7---6---5--|
A:--------------------------------|
E:--------------------------------|


RE             LA7
Sería capaz de cantar
SOL       LA7      RE
todita la noche pa' verte bailar.
MI7 RE/FA# LA9/SOL#   LA7
Mientras canto voy bebiendo
MI7      LA7      RE
el aire que dejas al pasar.
LA7   RE7     SOL     MI7
Mientras canto voy bebiendo
LA7               RE
el aire que dejas al pasar.

Aroma de tu pollera
guardo en mi guitarra para alcanzarte
yo te abrazo y la zamba
me roba los ojos para mirarte.
Yo te abrazo y la zamba
me roba los ojos para mirarte.

Julio:
FA#7            SIm
Sería capaz de pedirle a la luna
MI7              LA
que baile a tu alrededor
LA7                RE
pero le quitarías la luz
LA7         RE7
sin luna no hay zamba y mi corazón
Julio y Roberto:
SOL      LA7  RE
sin zamba ya no podría
LA7            RE
cantarte vidita lo que siento.

Inter:
e:-10--9---7---5---7---5---3---2---2---3---5---7---7---8--8--8---7---5--|
B:-12--10--8---7---8---7---5---3---3---5---7---8---8---10-10-10--8---7--|
G:----------------------------------------------------------------------|
D:-------------------------------0--------------------------------------|
A:----------------------------------------------------------------------|
E:----------------------------------------------------------------------|

e:-10-10--9---7-7---5--5-5--7---5-5---3---5---3---3--|
B:-12-12--10--8-8---7--7-7--8---7-7---5---7---5---5--|
G:---------------------------------------------------|
D:---------------------------------------------------|
A:0--------------------------------------------------|
E:---------------------------------------------------|

RE            LA7
Sería capaz de volar
SOL       LA7      RE
todita la noche con tu pañuelo
MI7 RE/FA# LA9/SOL#(SIn3)   LA7
palomita de tu mano
MI7      LA7      RE
que se escapa y viene a mi pecho.
LA7   RE7     SOL     MI7
Palomita de tu mano
LA7               RE
que se escapa y viene a mi pecho.

RE            LA7
Milagro de toda zamba
SOL       LA7      RE
no hay nada que brille como tu cuerpo
MI7 RE/FA# LA9/SOL#(SIn3)   LA7
cuando bailas tu mirada
MI7      LA7      RE
alumbra la copla de mi deseo.
LA7   RE7     SOL     MI7
Cuando bailas tu mirada
LA7               RE
alumbra la copla de mi deseo.


FA#7            SIm
Sería capaz de pedirle a la luna
MI7              LA
que baile a tu alrededor
LA7                RE
pero le quitarías la luz
LA7         RE7
sin luna no hay zamba y mi corazón
SOL      LA7  RE
sin zamba ya no podría
LA7            RE
cantarte vidita lo que siento.


No hay comentarios:

Publicar un comentario en la entrada

LINKS

ELLEMENTOS RELACIONADOS

AddThis

A muchos amigos les gusta acordes. Sumate vos tambien